Menu Close

Autumn In My Heart – INSTRUMENTAL – Guitar Tabs

Autumn Tale OST #03 Romance - 최태완 Choi Tae-Won
e|-7-----7-----7------|-7-----5-----3------|-3-----2-----0------|-0-----3-----7------|
B|---0-----0-----0----|---0-----0-----0----|---0-----0-----0----|---0-----0-----0----|
G|-----0-----0-----0--|-----0-----0-----0--|-----0-----0-----0--|-----0-----0-----0--|
D|--------------------|--------------------|--------------------|--------------------|
A|--------------------|--------------------|--------------------|--------------------|
E|-0------------------|-0------------------|-0------------------|-0------------------|


 |-12-----12-----12-----|-12-----10-----8-----|-8-----7-----5----|-5-----7-----8-----|
 |----0------0------0---|----0------0-----0---|---5-----5-----5--|---5-----5-----5---|
 |------0------0------0-|------0------0-----0-|-----5-----5-----5|-----5-----5-----5-|
 |----------------------|---------------------|------------------|-------------------|
 |----------------------|---------------------|-0----------------|-0-----------------|
 |-0--------------------|-0-------------------|------------------|-------------------|


 |-7-----8-----7--------|-11-----8-----7------|-7-----5----3-----|-3----2----0-------|
 |---7-----7-----7------|----7-----7-----7----|---0-----0----0---|---0----0----0-----|
 |-----8-----8-----8----|------8-----8-----8--|-----0-----0----0-|-----0----0----0---|
 |----------------------|---------------------|------------------|-------------------|
 |----------------------|---------------------|------------------|-------------------|
 |-7--------------------|--7------------------|-0----------------|-0-----------------|



 |-2-----2-----2------|-2-----3-----2-----|-0-----0------0-----|--0-----------------||
 |---0-----0-----0----|---0-----0-----0---|---0-----0------0---|--------------------||
 |-----2-----2-----2--|-----2-----2-----2-|-----0-----0------0-|-------------------*||
 |--------------------|-------------------|-2------------------|-------------------*||
 |-2------------------|-2-----------------|-------2------------|--------------------||
 |--------------------|-------------------|--------------3-----|--0-----------------||


 |-4-----4-----4------|-4-----2-----0-----|--------------------|---------------------|
 |---0-----0-----0----|---0-----0-----0---|-5-----4-----4------|-4-----3-----4-------|
 |-----1-----1-----1--|-----1-----1-----1-|---2-----2-----2----|---2-----2-----2-----|
 |--------------------|-------------------|-----4-----4-----4--|-----4-----4-----4---|
 |--------------------|-------------------|-2------------------|-2-------------------|
 |-0------------------|-0-----------------|--------------------|---------------------|


 |-9-----9-----9------|-9----11-----9-----|-9-----7-----7------|-7-----9-----11------|
 |---7-----7-----7----|---7-----7-----7---|---9-----9-----9----|---9-----9------9----|
 |-----8-----8-----8--|-----8-----8-----8-|-----9-----9------9-|-----9-----9------9--|
 |--------------------|-------------------|--------------------|---------------------|
 |--------------------|-------------------|--------------------|---------------------|
 |-7------------------|-7-----------------|-0------------------|-0-------------------|


 |-12----12----12------|-12----11----10------|-9-----9-----9-----|-9-----7-----5-----|
 |----9-----9-----9----|----9-----9-----9----|---5-----5-----5---|---5-----5-----5---|
 |------9-----9------9-|------9-----9-----9--|-----6-----6-----6-|-----6-----6-----6-|
 |---------------------|---------------------|-------------------|-------------------|
 |---------------------|---------------------|-0-----------------|-------------------|
 |--0------------------|--0------------------|-------------------|-0-----------------|


 |-4-----4-----4------|--4----5-----2-----|-0-----0-----0------|-0------------------||
 |---4-----4-----4----|----4----4-----4---|---0-----0-----0----|--------------------||
 |-----2-----2-----2--|------2----2-----2-|-----1-----1------1-|--------------------||
 |--------------------|-------------------|-2------------------|--------------------||
 |-2------------------|--2----------------|-------2------------|--------------------||
 |--------------------|-------------------|-------------4------|-0------------------||

Songwriter/Composer Choi Tae-Won
Album/Movie/Genre Autumn in My Heart

Page hits: 14

Like our Facebook page to stay in touch.

Search for Songs

Leave a Reply

Your email address will not be published. Required fields are marked *

Discover more from Restless Notes | Guitar Chords & Tabs

Subscribe now to keep reading and get access to the full archive.

Continue reading