Menu Close

Hotel California Intro – EAGLES – Guitar Tabs


    Em                                  B7
e|-----------------------0-----------|-----------------------2-----|
b|--------------0--------------------|--------------0--------------|
g|--------0-----------0-----0--2-----|--------2-----------2--------|
d|-----2-----2-----2-----------------|-----1-----1-----1-----------|
a|--2--------------------------------|--2--------------------------|
E|-----------------------------------|-----------------------------|

    Dsus2                               C#m
 |-----------0-----------------------|-----------------------0-----|
 |--------3-----3--------3--------3--|--------------0--------------|
 |-----2--------------2--------2-----|--------0-----------0--------|
 |-----------------0-----------------|-----2-----2-----2-----------|
 |--0-----------------------0--------|--4--------------------------|
 |-----------------------------------|-----------------------------|

    C                                   G
 |-----------------------0-----------|-----------------------------|
 |--------------1--------------------|--------------3--------------|
 |--------0-----------0----------0---|--------0-----------0--------|
 |-----2-----2-----2--------0h2------|-----0-----0-----0-----------|
 |--3--------------------------------|--2--------------------2-----|
 |-----------------------------------|--------------------------3--|

    Am7                                 B7
 |-----------------------0-----------|-----------------------2-----|
 |--------------1--------------------|--------------0--------------|
 |--------0-----------0--------------|--------2-----------2--------|
 |-----2-----2-----2-----------------|-----1-----1-----1-----------|
 |--0--------------------------------|--2--------------------------|
 |-------------------------0---------|-----------------------------|


h =  Hammer-on

Use capo on 7th fret to play in B minor

Songwriter/Composer Don Henley, Glenn Frey, Don Felder
Album/Movie/Genre Eagles
Click here for guitar chords of Hotel California

Page hits: 29

Like our Facebook page to stay in touch.

Search for Songs

Leave a Reply

Your email address will not be published. Required fields are marked *

Discover more from Restless Notes | Guitar Chords & Tabs

Subscribe now to keep reading and get access to the full archive.

Continue reading