Menu Close

Kholo Kholo Darwaaze Intro – TAARE ZAMEEN PAR – Guitar Tabs


e|-----0-------------------------|
B|-----0--x--x--x----------------|
G|-----x--x--x--x-------2--2-----|
D|--------x--x--x-------2--2-----|
A|-----------------2h4--0--0-----|
E|--0-------------------------3--|

h =  Hammer-on


The song ends with these notes:

e|-------------------------------|
B|-------------------------------|
G|-------------------------------|
D|-------------------------------|
A|-------------------------------|
E|-3-5-3----0--------------------|


Page hits: 34

Like our Facebook page to stay in touch.

Search for Songs

Leave a Reply

Your email address will not be published. Required fields are marked *

Discover more from Restless Notes | Guitar Chords & Tabs

Subscribe now to keep reading and get access to the full archive.

Continue reading