Menu Close

Vande Mataram – NATIONAL SONG OF INDIA – Guitar Tabs

    Vande    Ma.....taram     Vande    Ma.....taram
e|--------------------------|----------------------------|
B|--------------------------|----------2---3---2---3-----|
G|--------------2-------2---|------2---------------------|
D|------2---5-------5-------|--5-------------------------|
A|--5-----------------------|----------------------------|
E|--------------------------|----------------------------|

    Suja..lam   Sufa...lam        Malayaja    shitalam
e|-----------------------------|-------------------------|
B|--3--5-----------------------|-------------------------|
G|--------5--2--2--4-----------|--------2----------------|
D|--------------------5--4--2--|--2--2-----4--3--2--4----|
A|-----------------------------|-----------------------5-|
E|-----------------------------|-------------------------|

    Sashya Shyamalam   Mataram      Vande  Ma...taram
e|--------------------------------|----------------------|
B|--------------------------------|--------2--3--2--3----|
G|-----------2-----2---2--5--4--2-|-----2----------------|
D|-----2--5-----5-----------------|--5-------------------|
A|--5-----------------------------|----------------------|
E|--------------------------------|----------------------|

    Subhra  Yotsna  Pulakita        Yaminim
e|-------------------------------------------------------|
B|----------2---2---2---2---3---2---3---2---3------------|
G|------2------------------------------------------------|
D|--5----------------------------------------------------|
A|-------------------------------------------------------|
E|-------------------------------------------------------|

    Phulya Kusumita         Dhrumadala      Shobhini
e|-------------------------------------------------------|
B|--2---2---2---3---3---3---2---3---5---3----------------|
G|------------------------------------------5---3---2----|
D|-------------------------------------------------------|
A|-------------------------------------------------------|
E|-------------------------------------------------------|

    Subhashinim        Sumadhura      bhashinim
e|-------------------------------------------------------|
B|-------------------------------------------------------|
G|----------------------------5---4---2---4---2----------|
D|--2---5---4---2-----2---2------------------------------|
A|-------------------------------------------------------|
E|-------------------------------------------------------|

    Sukhadam Baradam   Ma..taram     Vande Ma...taram
e|--------------------------------|----------------------|
B|--------2--2--2--2--2--3--2--3--|--------2--3--2--3----|
G|-----2--------------------------|-----2----------------|
D|--5-----------------------------|--5-------------------|
A|--------------------------------|----------------------|
E|--------------------------------|----------------------|

Lyrics/Music Bankim Chandra Chatterjee
Album/Movie National Song of India
Guitar chords of Vande Mataram


Like our Facebook page to stay in touch.

Search for Songs

Views: Today 1 | Total 8

Leave a Reply

Your email address will not be published. Required fields are marked *

Discover more from Restless Notes | Guitar Chords & Tabs

Subscribe now to keep reading and get access to the full archive.

Continue reading