Menu Close

Every Breath You Take – THE POLICE – Guitar Tabs


e|---------------------------------|---------------------------------|
B|-----------------0---------------|-----------------0---------------|
G|---------2-----------2-------2---|---------2-----------2-------2---|
D|-----0-------0-----------0-------|-----0-------0-----------0-------|
A|---------------------------------|---------------------------------|
E|--3------------------------------|--3------------------------------|


e|---------------------------------|---------------------------------|
B|---------------------------------|---------------------------------|
G|------------------0--------------|------------------0--------------|
D|----------4-----------4--------4-|----------4-----------4--------4-|
A|------2-------2------------2-----|------2-------2------------2-----|
E|--0------------------------------|--0------------------------------|


e|---------------------------------|-----------0---------------------|
B|-----------3-------1-------------|-------------------3-------------|
G|-----------------------0------0--|--------2------2-------2-------2-|
D|-------2-------2-----------2-----|----0----------------------0-----|
A|---3-----------------------------|---------------------------------|
E|---------------------------------|---------------------------------|

Page hits: 23

Like our Facebook page to stay in touch.

Search for Songs

Leave a Reply

Your email address will not be published. Required fields are marked *

Discover more from Restless Notes | Guitar Chords & Tabs

Subscribe now to keep reading and get access to the full archive.

Continue reading