Menu Close

Bookends – SIMON AND GARFUNKEL – Guitar Tabs

e|------0---1-------0---1-------0---1-------0---1---0----------------------|
B|--3-----------3-----------3-----------3---------------1------------------|
G|------0---2-------0---2-------0---2-------0---2---0-------0--------------|
D|--3-----------3-----------3-----------3---------------2------------------|
A|----------------------------------------------------------3--------------|
E|-------------------------------------------------------------------------|

 |------0---------------------------------------0---------------------0---||
 |--1-------1---3---1---------------1---3---1-------1-------1------1------||
 |------0---------------2-------2---------------0-------0-------0-----0---|| x5
 |--2-------2---3---3-------3-------3---3---3-------2-------2------2------||
 |----------------------3-------------------------------3-------3---------||
 |------------------------------------------------------------------------||

Songwriter/Composer Paul Simon, Art Garfunkel
Album/Movie/Genre Bookends Theme

Page hits: 7

Like our Facebook page to stay in touch.

Search for Songs

Leave a Reply

Your email address will not be published. Required fields are marked *

Discover more from Restless Notes | Guitar Chords & Tabs

Subscribe now to keep reading and get access to the full archive.

Continue reading