Menu Close

Hawaaon Mein Bahenge – KALANK – Guitar Tabs


Scale: C major

    Hawaaon mein bahenge    Ghataon mein rahenge
e|-----------------------|-----------------------|
B|--5--6--8--6--5--8-----|-----------------------|
G|-----------------------|--5--7--8--7--5--8-----|
D|--------------------7--|--------------------6--|
A|-----------------------|-----------------------|
E|-----------------------|-----------------------|

    Tu barkha meri          Main tera baadal piya
 |-----------------------|-----------------------|
 |-----------------5-----|-----------------------|
 |--------5--------------|--7--5--8--7--7--5--5--|
 |--6--8-----8--6--------|-----------------------|
 |-----------------------|-----------------------|
 |-----------------------|-----------------------|
 
    Hazaaron mein kisi ko   Taqdeer aisi
 |--------------------5--|-----------------------|
 |--5--6--8--6--5--8-----|--4/5-----------5------|
 |-----------------------|-------7--5--7---------|
 |-----------------------|-----------------------|
 |-----------------------|-----------------------|
 |-----------------------|-----------------------|

    Mili hai ik Ranjha      Aur Heer jaisi
 |--------------------5--|-----------------------|
 |--5--6--8--6--5--8-----|--4/5-----------5------|
 |-----------------------|-------7--5--7---------|
 |-----------------------|-----------------------|
 |-----------------------|-----------------------|
 |-----------------------|-----------------------|
 
    Duniya ki nazron mein   Ye rog hai
 |-----------5--------5--|-----------------------|
 |--5--5--8-----5--8-----|--------8--8-----------|
 |-----------------------|--8--8-----------------|
 |-----------------------|-----------------------|
 |-----------------------|-----------------------|
 |-----------------------|-----------------------|
 
    Ho jinko   woh jaane      Ye jog hai
 |-----------5--------5/8--|--5/6--5-------------|
 |--5--5--8-----5--8-------|----------8--8-------|
 |-------------------------|---------------------|
 |-------------------------|---------------------|
 |-------------------------|---------------------|
 |-------------------------|---------------------|
 
    Layi re humein zindgani ki kahaani        Kaise mod pe
 |--8--8--6--5-----------------------------|-----------------|
 |--------------8--6--6--6--6--5--5--5--5--|-----------------|
 |-----------------------------------------|--7--8--7--5--5--|
 |-----------------------------------------|-----------------|
 |-----------------------------------------|-----------------|
 |-----------------------------------------|-----------------|
 
Page hits: 78

Like our Facebook page to stay in touch.

Search for Songs

Leave a Reply

Your email address will not be published. Required fields are marked *

Discover more from Restless Notes | Guitar Chords & Tabs

Subscribe now to keep reading and get access to the full archive.

Continue reading