Menu Close

Love Story – FRANCIS LAI – Guitar Tabs

Love Story is a beautiful melody composed by Francis Lai, for the movie Love Story. After the instrumental theme music became popular, it was given words by Carl Sigman and was released in 1971 with Andy Williams singing under the title Where Do I Begin?


e|--------------------------|-------------------------|
B|-8-----8-8-----8-8--------|-------7-7-----7-7-------|
G|--------------------------|-------------------------|
D|---9-9-----9-9-----9-10-9-|-7-7-7-----7-7-----7-9-7-|
A|--------------------------|-------------------------|
E|--------------------------|-------------------------|

e|--------------------------------|-------------------|
B|--------------------------------|-------------7-----|
G|----------9-9-------9-9---------|-------8-8-9---8---|
D|---------------------------7----|-----------------9-|
A|-10-10-10-----10-10-----10---10-|-9-9-9-------------|
E|--------------------------------|-------------------|

e|--------------------------|-------------------------|
B|-8-----8-8-----8-8--------|-------7-7-----7-7-------|
G|--------------------------|-------------------------|
D|---9-9-----9-9-----9-10-9-|-7-7-7-----7-7-----7-9-7-|
A|--------------------------|-------------------------|
E|--------------------------|-------------------------|

e|--------------------------------|-------------------|
B|--------------------------------|-------------7---9-|
G|----------9-9-------9-9---------|-------8-8-9---8---|
D|---------------------------7----|-------------------|
A|-10-10-10-----10-10-----10---10-|-9-9-9-------------|
E|--------------------------------|-------------------|

e|----7---8-------------|----8----7-------------|
B|-10---------8-----7-7-|-10---10-----7---------|
G|------9---9---9-9-----|-----------7---7-7-9-9-|
D|----------------------|-----------------------|
A|----------------------|-----------------------|
E|----------------------|-----------------------|

e|---7------------------7-|---7-8------------|
B|-8---8-10-7-10-7-8-10---|-8----------8-8-7-|-
G|------------------------|----------9-------|
D|------------------------|-------10---------|
A|------------------------|------------------|
E|------------------------|------------------|

e|---7----------------|--------------------|-------------|
B|-8---7----------7---|--------------------|-----7-8-----|
G|--------------7---9-|-9-7--------6-9-6-8-|-8-9-----9---|
D|-------9-9-10-------|-----10-9-8---------|-----------9-|
A|--------------------|--------------------|-------------|
E|--------------------|--------------------|-------------|


Songwriter/Composer Francis Lai
Album/Movie/Genre Love Story


Like our Facebook page to stay in touch.

Search for Songs

Views: Today 1 | Total 10

Leave a Reply

Your email address will not be published. Required fields are marked *

Discover more from Restless Notes | Guitar Chords & Tabs

Subscribe now to keep reading and get access to the full archive.

Continue reading