Menu Close

Rimjhim Gire Sawan – MANZIL – Guitar Tabs


   Rimjhim gire saawan         Sulag sulag jaye mann
e|--------------------------|--------------------------------|
B|--------------------------|--------------------------------|
G|-----------------2--------|--------------------------------|
D|--------0--2--3-----2--2--|--3--2--0--3--2--0--0-----0-----|
A|--0--3--------------------|-----------------------4-----2--|
E|--------------------------|--------------------------------|

  Bheege aaj iss mausam mein   Lagi kaisi yeh agan
e|--------------------------|--------------------------------|
B|--------------------------|----------1--0------------------|
G|--------0---0-0---0-0-----|----0--2--------2--2--2-----2---|
D|----0-2---4-----4------2--|--2---------------------2-3---2-|
A|--2-----------------------|--------------------------------|
E|--------------------------|--------------------------------|

   Rimjhim gire saawan
e|--------------------------|
B|--------------------------|
G|-----------------2--------|
D|--------0--2--3-----2--2--|
A|--0--3--------------------|
E|--------------------------|

    Jab ghungruon si        Bajti hai boondein
e|-----------------------|--------------------|
B|--1--------------------|-----------------0--|
G|-----2--2--------------|--2--2--2--1--2-----|
D|-----------2--2--3--3--|--------------------|
A|-----------------------|--------------------|
E|-----------------------|--------------------|

    Armaan hamaare            Palkein naa moondein
e|--------------------------|-----------------||
H|--0--3--0-----------------|-----------------||
G|-----------2--2--2--------|-----------2--2--||
D|--------------------2--0--|--3--3--3--------||
A|--------------------------|-----------------||
E|--------------------------|-----------------||

Songwriter/Composer Yogesh, R D Burman
Album/Movie/Genre Manzil

Guitar chords of Rimjhim Gire Sawan


Like our Facebook page to stay in touch.

Search for Songs

Views: Today 1 | Total 40

Leave a Reply

Your email address will not be published. Required fields are marked *

Discover more from Restless Notes | Guitar Chords & Tabs

Subscribe now to keep reading and get access to the full archive.

Continue reading