Menu Close

Hello (Solo) – LIONEL RICHIE – Guitar Tabs


e|-----|--------------------------------------|----------------5-----7--|
B|-----|--------------5/6-----5---------------|-----5-----3/5-----5-----|
G|-----|-----4--5--7-------7-----5/7--4--5/4--|--------7----------------|
D|-----|--7-----------------------------------|--7----------------------|
A|--7--|--------------------------------------|-------------------------|
E|-----|--------------------------------------|-------------------------|


e|--8--5--7-----5--------------|---------------------------|--12--13--12---10--12--10--|
B|-----------8-----5--8--8-----|---------------------8-----|---------------------------|
G|--------------------9--9-----|--9--5/7--5--5--7/9-----7--|--9---10--9----7---9---7---|
D|-----------------------------|---------------------------|---------------------------|
A|-----------------------------|---------------------------|---------------------------|
E|-----------------------------|---------------------------|---------------------------|


e|----------|-------------------------5-----7--|--8--5--7-----5-----|
B|--13--12--|--13--10--10--8--10---5-----5-----|-----------8-----5--|
G|----------|----------------------------------|--------------------|
D|--10--10--|--10--7---7---5--7----------------|--------------------|
A|----------|----------------------------------|--------------------|
E|----------|----------------------------------|--------------------|

Lyrics/Music Lionel Richie
Album/Movie Can’t Slow Down
Guitar chords of Hello – LIONEL RICHIE

Page hits: 0
Add to favourites (0)
ClosePlease login

No account yet? Register


Like our Facebook page to stay in touch.

Search for Songs

Leave a Reply

Your email address will not be published. Required fields are marked *