Menu Close

Ye Dil Na Hota Bechaara – JEWEL THIEF – Guitar Tabs



   Ye dil   Na hotaa bechaara     Kadam   Na hote aawara
e|-------|----------------------|------|------------------------|
B|-------|-----------1--0-------|------|------------------------|
G|----0--|--0-----0--------0----|----0-|--0-----0--3--2---------|
D|-2-----|-----2----------------|-2----|-----2-----------3------|
A|-------|----------------------|------|------------------------|
E|-------|----------------------|------|------------------------|

   Jo khoobasurat koee apanaa         Humasafar hotaa   ho ho ho
e|---------------------------------|----------------------------|
B|----------------------1----------|----------------------------|
G|----0-----2--0--2--3-----3--2--0-|--3--2--0--------0--3--2--0-|
D|-2-----3-------------------------|-----------2--3-------------|
A|---------------------------------|----------------------------|
E|---------------------------------|----------------------------|

   Sunaa    Jab se zamaane hain bahaar ke
e|-------|----------------------------------|
B|-0--1--|--0--1--3--1--0--------------0----|
G|-------|-----------------2--0--2--0-------|
D|-------|----------------------------------|
A|-------|----------------------------------|
E|-------|----------------------------------|

   Hum bhee aaye hain raahee ban ke pyaar ke
e|-------|----------------------------------|
B|-------|--------0--3p2---1--0--1----------|
G|-0--2--|--0--2--------------------2-----0-|
D|-------|----------------------------------|
A|-------|----------------------------------|
E|-------|----------------------------------|

    Koee naa koee bulaayegaa      Khade hain hum bhee raahon me
e|------------------------------|-----------------------------||
B|--------------0-----1---2--3--|-------3--2---3--2-----0--1--||
G|-----0-----0-----0------------|-0--2---------------2--------||
D|--2-----2---------------------|-----------------------------||
A|------------------------------|-----------------------------||
E|------------------------------|-----------------------------||

p = pull-off

Songwriter/Composer Majrooh Sultanpuri, S D Burman
Album/Movie/Genre Jewel Thief

Page hits: 12

Like our Facebook page to stay in touch.

Search for Songs

Leave a Reply

Your email address will not be published. Required fields are marked *

Discover more from Restless Notes | Guitar Chords & Tabs

Subscribe now to keep reading and get access to the full archive.

Continue reading